999
FreeCAD v0.18 16034 (Git)
  0
SECTION
  2
HEADER
  9
$ACADVER
  1
AC1014
  9
$ACADMAINTVER
 70
     9
  9
$DWGCODEPAGE
  3
ANSI_1252
  9
$TEXTSTYLE
  7
STANDARD
  9
$DIMSTYLE
  2
STANDARD
  9
$DIMTXSTY
  7
STANDARD
  9
$CMLSTYLE
  2
STANDARD
  9
$HANDSEED
  5
FFF
  0
ENDSEC
  0
SECTION
  2
CLASSES
  0
CLASS
  1
ACDBDICTIONARYWDFLT
  2
AcDbDictionaryWithDefault
  3
ObjectDBX Classes
 90
        0
280
     0
281
     0
  0
CLASS
  1
XRECORD
  2
AcDbXrecord
  3
ObjectDBX Classes
 90
        0
280
     0
281
     0
  0
CLASS
  1
LWPOLYLINE
  2
AcDbPolyline
  3
ObjectDBX Classes
 90
        0
280
     0
281
     1
  0
ENDSEC
  0
SECTION
  2
TABLES
  0
TABLE
  2
VPORT
  5
20
330
0
100
AcDbSymbolTable
 70
     1
  0
VPORT
  5
21
330
20
100
AcDbSymbolTableRecord
100
AcDbViewportTableRecord
  2
*ACTIVE
 70
     0
  0
ENDTAB
  0
TABLE
  2
LTYPE
  5
22
330
0
100
AcDbSymbolTable
 70
     1
  0
LTYPE
  5
23
330
21
100
AcDbSymbolTableRecord
100
AcDbLinetypeTableRecord
  2
BYBLOCK
 70
     0
  3

 72
    65
 73
     0
 40
0.0
  0
LTYPE
  5
24
330
21
100
AcDbSymbolTableRecord
100
AcDbLinetypeTableRecord
  2
BYLAYER
 70
     0
  3

 72
    65
 73
     0
 40
0.0
  0
LTYPE
  5
25
330
21
100
AcDbSymbolTableRecord
100
AcDbLinetypeTableRecord
  2
CONTINUOUS
 70
     0
  3
Solid line
 72
    65
 73
     0
 40
0.0
  0
ENDTAB
  0
TABLE
  2
LAYER
  5
31
330
0
100
AcDbSymbolTable
 70
2
  0
LAYER
  5
32
330
31
100
AcDbSymbolTableRecord
100
AcDbLayerTableRecord
  2
0
 70
   0
 62
   7
  6
CONTINUOUS
  0
LAYER
  5
33
330
31
100
AcDbSymbolTableRecord
100
AcDbLayerTableRecord
  2
ProjItem001
 70
    0
 62
    7
  6
CONTINUOUS
  0
ENDTAB
  0
TABLE
  2
STYLE
  5
60
330
0
100
AcDbSymbolTable
 70
     2
  0
STYLE
  5
61
330
60
100
AcDbSymbolTableRecord
100
AcDbTextStyleTableRecord
  2
STANDARD
 70
     0
 40
0.0
 41
1.0
 50
0.0
 71
     0
 42
2.5
  3
arial.ttf
  4

  0
STYLE
  5
62
330
60
100
AcDbSymbolTableRecord
100
AcDbTextStyleTableRecord
  2
ANNOTATIVE
 70
     0
 40
0.0
 41
1.0
 50
0.0
 71
     0
 42
2.5
  3
arial.ttf
  4

  0
ENDTAB
  0
TABLE
  2
VIEW
  5
63
330
0
100
AcDbSymbolTable
 70
     0
  0
ENDTAB
  0
TABLE
  2
UCS
  5
64
330
0
100
AcDbSymbolTable
 70
     0
  0
ENDTAB
  0
TABLE
  2
APPID
  5
65
330
0
100
AcDbSymbolTable
 70
     2
  0
APPID
  5
66
330
65
100
AcDbSymbolTableRecord
100
AcDbRegAppTableRecord
  2
ACAD
 70
     0
  0
APPID
  5
67
330
65
100
AcDbSymbolTableRecord
100
AcDbRegAppTableRecord
  2
ACADANNOTATIVE
 70
     0
  0
ENDTAB
  0
TABLE
  2
DIMSTYLE
  5
68
330
0
100
AcDbSymbolTable
 70
     2
  0
DIMSTYLE
105
69
330
68
100
AcDbSymbolTableRecord
100
AcDbDimStyleTableRecord
  2
STANDARD
 70
     0
  3

  4

  5

  6

  7

 40
0.0
 41
2.5
 42
0.625
 43
3.75
 44
1.25
 45
0.0
 46
0.0
 47
0.0
 48
0.0
140
2.5
141
2.5
142
0.0
143
0.03937007874016
144
1.0
145
0.0
146
1.0
147
0.625
 71
     0
 72
     0
 73
     0
 74
     0
 75
     0
 76
     0
 77
     1
 78
     8
170
     0
171
     3
172
     1
173
     0
174
     0
175
     0
176
     0
177
     0
178
     0
270
     2
271
     2
272
     2
273
     2
274
     3
340
61
275
     0
280
     0
281
     0
282
     0
283
     0
284
     8
285
     0
286
     0
287
     3
288
     0
  0
ENDTAB
  0
TABLE
  2
BLOCK_RECORD
  5
111
330
0
100
AcDbSymbolTable
  70
5
  0
BLOCK_RECORD
  5
112
330
111
100
AcDbSymbolTableRecord
100
AcDbBlockTableRecord
  2
*MODEL_SPACE
  0
BLOCK_RECORD
  5
113
330
111
100
AcDbSymbolTableRecord
100
AcDbBlockTableRecord
  2
*PAPER_SPACE
  0
ENDTAB
  0
ENDSEC
  0
SECTION
  2
BLOCKS
  0
BLOCK
  5
211
330
112
100
AcDbEntity
  8
0
100
AcDbBlockBegin
  2
*MODEL_SPACE
 70
   0
 10
0
 20
0
 30
0
  3
*MODEL_SPACE
  1
 
  0
ENDBLK
  5
212
330
112
100
AcDbEntity
  8
0
100
AcDbBlockEnd
  0
BLOCK
  5
213
330
113
100
AcDbEntity
 67
1
  8
0
100
AcDbBlockBegin
  2
*PAPER_SPACE
 70
   0
 10
0
 20
0
 30
0
  3
*PAPER_SPACE
  1
 
  0
ENDBLK
  5
214
330
113
100
AcDbEntity
 67
    1
  8
0
100
AcDbBlockEnd
  0
ENDSEC
  0
SECTION
  2
ENTITIES
  0
ARC
  5
301
330
112
100
AcDbEntity
  8
ProjItem001
100
AcDbCircle
 10
17
 20
261.171
 30
0
 40
9.5
100
AcDbArc
 50
90
 51
180
  0
LINE
  5
302
330
112
100
AcDbEntity
  8
ProjItem001
100
AcDbLine
 10
193
 20
270.671
 30
0
 11
17
 21
270.671
 31
0
  0
LINE
  5
303
330
112
100
AcDbEntity
  8
ProjItem001
100
AcDbLine
 10
7.5
 20
261.171
 30
0
 11
7.5
 21
150.937
 31
0
  0
ARC
  5
304
330
112
100
AcDbEntity
  8
ProjItem001
100
AcDbCircle
 10
193
 20
261.171
 30
0
 40
9.5
100
AcDbArc
 50
0
 51
90
  0
LINE
  5
305
330
112
100
AcDbEntity
  8
ProjItem001
100
AcDbLine
 10
202.5
 20
261.171
 30
0
 11
202.5
 21
150.937
 31
0
  0
ARC
  5
306
330
112
100
AcDbEntity
  8
ProjItem001
100
AcDbCircle
 10
162.5
 20
150.937
 30
0
 40
40
100
AcDbArc
 50
-15
 51
0
  0
ARC
  5
307
330
112
100
AcDbEntity
  8
ProjItem001
100
AcDbCircle
 10
47.5
 20
150.937
 30
0
 40
40
100
AcDbArc
 50
180
 51
-165
  0
LINE
  5
308
330
112
100
AcDbEntity
  8
ProjItem001
100
AcDbLine
 10
201.137
 20
140.584
 30
0
 11
175.111
 21
43.4531
 31
0
  0
LINE
  5
309
330
112
100
AcDbEntity
  8
ProjItem001
100
AcDbLine
 10
8.86297
 20
140.584
 30
0
 11
34.8891
 21
43.4531
 31
0
  0
ARC
  5
30A
330
112
100
AcDbEntity
  8
ProjItem001
100
AcDbCircle
 10
164.969
 20
46.1707
 30
0
 40
10.5
100
AcDbArc
 50
-90
 51
-15
  0
ARC
  5
30B
330
112
100
AcDbEntity
  8
ProjItem001
100
AcDbCircle
 10
45.0313
 20
46.1707
 30
0
 40
10.5
100
AcDbArc
 50
-165
 51
-90
  0
LINE
  5
30C
330
112
100
AcDbEntity
  8
ProjItem001
100
AcDbLine
 10
45.0313
 20
35.6707
 30
0
 11
164.969
 21
35.6707
 31
0
  0
CIRCLE
  5
30D
330
112
100
AcDbEntity
  8
ProjItem001
100
AcDbCircle
 10
185
 20
94.6707
 40
2
  0
CIRCLE
  5
30E
330
112
100
AcDbEntity
  8
ProjItem001
100
AcDbCircle
 10
50
 20
264.171
 40
2
  0
CIRCLE
  5
30F
330
112
100
AcDbEntity
  8
ProjItem001
100
AcDbCircle
 10
160
 20
264.171
 40
2
  0
CIRCLE
  5
310
330
112
100
AcDbEntity
  8
ProjItem001
100
AcDbCircle
 10
25
 20
94.6707
 40
2
  0
ENDSEC
  0
SECTION
  2
OBJECTS
  0
DICTIONARY
  5
500
330
0
100
AcDbDictionary
  3
ACAD_GROUP
350
501
  0
DICTIONARY
  5
501
330
500
100
AcDbDictionary
  0
ENDSEC
  0
EOF